It is currently Tue Sep 30, 2014 6:52 pm


Something Special For The Ladies *Tab Attempt*

Erm, music, lyrics and tabs. Asking about Conchords music, lyrics or tabs please post here.

Moderator: Nancy

Something Special For The Ladies *Tab Attempt*

Postby Hurley107 » Mon Sep 10, 2007 1:35 am

Something Special For All The Ladies
Tabbed By Hurley107

\= Slide
x= wrist Hit/Mute
x=wrist hit is optional here
| x
E|--6---x---6---x---6---x---6\ /--2-|--2-2/ /7-|--7-7-|
B|--6---x---6---x---6---x---6\ /--2-|--2-2/ /7-|--7-7-|
G|--7---x---7---x---7---x---7\ slide /--3-|--3-3/ slide /8-|--8-8-|
D|--6---x---6---x---6---x---6\ /--2-|--2-2/ /7-|--7-7-|
A|--8---x---8---x---8---x---8\ /--4-|--4-4/ /9-|--9-9-|
E|--6---x---6---x---6---x---6\ /--2-|--2-2/ /7-|--7-7-|
just wanna' do something in the world... *and the girls...
special for all the don't forget the girls*
ladies....

| x
E|--6---x---6---x---6---x---6\ /--2-|--2-2/ /7-|--7-7-|
B|--6---x---6---x---6---x---6\ /--2-|--2-2/ /7-|--7-7-|
G|--7---x---7---x---7---x---7\ slide /--3-|--3-3/ slide /8-|--8-8-|
D|--6---x---6---x---6---x---6\ /--2-|--2-2/ /7-|--7-7-|
A|--8---x---8---x---8---x---8\ /--4-|--4-4/ /9-|--9-9-|
E|--6---x---6---x---6---x---6\ /--2-|--2-2/ /7-|--7-7-|
********..Ladies *** LaDiEs *** !LADIES!

E|--6---x---6---x---6---x---6\ /--2-|--2-2/ /7-|--7-7-|
B|--6---x---6---x---6---x---6\ /--2-|--2-2/ /7-|--7-7-|
G|--7---x---7---x---7---x---7\ slide /--3-|--3-3/ slide /8-|--8-8-|
D|--6---x---6---x---6---x---6\ /--2-|--2-2/ /7-|--7-7-|
A|--8---x---8---x---8---x---8\ /--4-|--4-4/ /9-|--9-9-|
E|--6---x---6---x---6---x---6\ /--2-|--2-2/ /7-|--7-7-|


E|--8- --6---7---
B|--8- --7---7---
G|--9- listen to song to get rythm --6---8---
D|-10- --8---7---
A|--8- --6---9---
E|--x- --x---7---
If every soldier in the wo-orld Put down his weapon and picked up a woman


E|--1---
B|--1---
G|--2--- strum a few times and pause
D|--3---
A|--3---
E|------
What a peaceful world this world would be...

E|------
B|------
G|--1---
D|--2---
A|--2---
E|------

Red Heads Not Warheads!

E|------
B|------
G|--1---
D|--2---
A|--2---
E|------

Blondes Not Bombs!


*This Part i dont exactly know the chords for but if anyone figures them out email me*

E|--?---
B|--?---
G|--?---
D|--?---
A|--?---
E|--?---

Im Talkin' About Brunettes Not---

E|--4---
B|--1---
G|--2---
D|--1---
A|--3---
E|--1---

Fighter Jehhh-Hettts!!!!


I have a vision and all I can see
Is all of you with ‘a all of me
In a world of peace and harmony....

Jamaine's Bass-y Part

E|---------------------------------------------------------------------------
B|---------------------------------------------------------------------------
G|---------------------------------------------------------------------------
D|---------------------------------------------------------------------------
A|----8--------------8--------------4--------------4-------------------------
E|--6---6-6668986--6---6-6668986--2---2-2224542--2---2-2224542---------------

>keep strumming> >keep strumming> >keep strumming till end...>
E|--2--2--2--2-----------------7--7--7---------------6--6--6----------------------
B|--2--2--2--2-----------------7--7--7---------------6--6--6----------------------
G|--3--3--3--3-----------------8--8--8---------------7--7--7----------------------
D|--2--2--2--2-----------------7--7--7---------------6--6--6----------------------
A|--4--4--4--4-----------------9--9--9---------------8--8--8----------------------
E|--2--2--2--2-----------------7--7--7---------------6--6--6----------------------

Ending*
FOR ALL THE LADIIEEEESSS -- IN THE WORLD -- YOU DESERVE IT GIRLS!!!

and thats it. besides the minor part at the end of "Blondes not Bombs!" that i dont know how to play. i put together alot of other peoples tabs and suggestions on the whatthefolk forum.

Special Thanks to:
*What the Folk* & Sherry for having such a great site.
some what the folk users:
-gr67
and
-chotzi
for their help with the chords.

i need feedback so i can improve this tab so feel free to help me out at Hurley107@gmail.com or get my on aim at HurleyOneOhSeven or on xfire at Hurley107. or just go to http://www.whatthefolk.net/forum/viewforum.php?f=8
and post on the forums. thanks alot everyone for the replys to my thread.










Hurley107
New arrival
 
Posts: 14
Joined: Mon Aug 06, 2007 9:31 am

Postby gr67 » Mon Sep 10, 2007 1:59 am

looks really good. nice work putting it all together.

also thanks for the props (shucks :lol: )
gr67
New arrival
 
Posts: 20
Joined: Mon Apr 09, 2007 5:39 am
Location: Canada


Return to Music, lyrics and tabs

Who is online

Users browsing this forum: No registered users and 3 guests

cron