It is currently Sun Sep 21, 2014 11:10 pm


Hiphoppapatomus Vs. Rhymenocerus CD tabs

Erm, music, lyrics and tabs. Asking about Conchords music, lyrics or tabs please post here.

Moderator: Nancy

Hiphoppapatomus Vs. Rhymenocerus CD tabs

Postby J+B » Tue Sep 23, 2008 12:00 am

Bret starts with this intro:

e--------------------------------
b--------------------------------
g-5xx5xx4--5xx5xx4--5xx5xx4-5454-o
d--------------------------------o
a--------------------------------
e--------------------------------

when bret does the 5454 at the end, jemaine plays this with it and they repeat w/ lyrics

e-------------------------------------------------
b-------------------------------------------------
g-------------------------------------------------o
d-----2-----------------------2-------------------o
a-3-----0--0-2--3---------3-----0--0-2-3-------2-3
e---4------------0-1--1-0---4------------0-1------

once jemaine is done with his line about bottomless lyrics, this little tidbit happens:

e----------------
b--6-7-8-9-10----

after that it's bassy rap beats with this, which can be played on one guitar or split for two, which is a little easier:

e----8--7-----8--7------8--7---8----8--
b----10-9-----10-9------10-9---10---10-
g-9--------8---------------------------o
d--------------------10-------9----9---o
a--------------------------------------
e--------------------------------------

and finally after that a few times, this is the transition to the "My rhymes & my records Part"

e---0/15-15-15---13--12

And thats all i've been able to work out so far, any comments please! i think the rest of the song is repeats of parts of those sections so it shouldn't be hard to figure out.
At that moment, Albi cried a single tear, all the colors of the rainbow! And suddenly he wasn't racist, anymore
User avatar
J+B
New arrival
 
Posts: 2
Joined: Mon Sep 22, 2008 11:28 pm

Return to Music, lyrics and tabs

Who is online

Users browsing this forum: No registered users and 1 guest