It is currently Sun Dec 21, 2014 10:39 pm


Chords to Pencils in the Wind

Erm, music, lyrics and tabs. Asking about Conchords music, lyrics or tabs please post here.

Moderator: Nancy

Chords to Pencils in the Wind

Postby Part Time Model » Mon Jul 23, 2007 7:43 pm

Does anybody know the chords to this song or at least have the first chord or two to work off of? I can't get it out of my head.
Part Time Model
New arrival
 
Posts: 1
Joined: Mon Jul 23, 2007 7:41 pm

Postby gr67 » Wed Aug 01, 2007 6:25 pm

i would also like the chords to this song. :D
gr67
New arrival
 
Posts: 20
Joined: Mon Apr 09, 2007 5:39 am
Location: Canada

Pencil's in the wind

Postby leggyblond » Fri Aug 03, 2007 12:08 am

I figured this out just by listening to it...it's not perfect but it's a jumping off point and if you and your friends sing it loud enough you can hardly notice the off-ness.

E|-3---3---3---3----3---3---0---0---|0---0----0---0---0------------|
B|-3---3---3---3----3---3---3---3---|1---1----1---1---1------------|
G|-0---0---0---0----0---0---0---0---|0---0----0---0---2---3-3P2-0|
D|-0---0---0---0----0---0---0---0---|2---2----0---0---2---0-0-----| %
A|-2---2---0---0----2---2---2---2---|3-3-3-3-2-2-2-2-0------------|
E|-3-3-3-3-2-2-2-2-0-0-0-00-0-0-0|---------------------------------|
Lives are like................................If you push 'em.....

This works essentially, if you use this and listen to the tune you can figure the rest out.
leggyblond
New arrival
 
Posts: 1
Joined: Thu Aug 02, 2007 11:50 pm

Postby auteq » Mon Aug 06, 2007 6:00 pm

Basically the song verse and chorus is G - D/F#(this is just a fancy way of walking down to Em") - Em/sus something Em7 Am-Am7 - D

Here's how I play it, each chord getting equal time except for th D that gets double(sometime I throw in that Dadd4 and Dsus2 indigo girl lick)
G D/F# Em/? Em7/?
Lives are like delicate pencils
Am Am7 D
If you push them too hard they’re gonna break (Same for the chorus)


G D/F# Em/? Em7/? Am Am7 D
E--3------x------3------3-------0-------0-------2
B--3------3------3------3-------1-------1-------3
G--0------2------0------0-------2-------0-------2
D--0------0------2------0-------2-------2-------0
A--2------0------2------2-------0--------0-------0
E--3------2------0------0-------0--------0-------0
auteq
New arrival
 
Posts: 1
Joined: Mon Aug 06, 2007 5:37 pm

Postby sheriffbart1029 » Tue Aug 07, 2007 11:56 pm

Does anybody know the piano part to this?
your hair down to your legs and your legs down to the floor
User avatar
sheriffbart1029
New arrival
 
Posts: 1
Joined: Thu Aug 02, 2007 6:34 am


Return to Music, lyrics and tabs

Who is online

Users browsing this forum: No registered users and 1 guest