hiphop-potamus vs rhymenocerous tabs

Erm, music, lyrics and tabs. Asking about Conchords music, lyrics or tabs please post here.

Moderator: Nancy

hiphop-potamus vs rhymenocerous tabs

Postby saschava » Wed Nov 09, 2005 11:27 am

fairly simple, im pretty sure its all power chords, not gonna bother writing many lyrics

Intro

alternating F5 and E5

e-|--------------------------------------------------------------------------------|
B-|--------------------------------------------------------------------------------|
G-|--10---10---10-8---10---10---10-8---10---10---10-8---10---8---10---8-|
D-|--10---10---10-8---10---10---10-8---10---10---10-8---10---8---10---8-|
A-|---8----8------8-6----8----8-----8-6----8----8-----8-6------8---6----8---6-|
E-|--------------------------------------------------------------------------------|


repeat that

actual theme uses chords A5, G5, F5 (on top E) and Emaj

in that order

e-|-----------------|
B-|-----------------|
G-|-----------------|
D-|--7--5--3--2--|
A-|--7--5--3--2--|
E-|--5--3--1--0--|

sort of like

A5
other rappers
G5
Dis me
F5
Say my rhymes are
Emaj
sissy

and so on for pretty much most the rapping and singing

cheers
User avatar
saschava
New arrival
 
Posts: 6
Joined: Sun Nov 06, 2005 11:48 am

Bass tabs

Postby sunny987_987 » Sat Nov 12, 2005 4:50 am

Finally, somebody who says Hiphopopotamus Versus Rhymenocerous!

I was really bored today so I just came up with some very simplistic bass tabs for it. They don't go in the order that they go in the song and they're only for the intro but you can pretty much work out the missing bits yourself :D

G) ------------------------------------------
D) ------------------------------------------
A) 0-0-0-0-0-2-2-2-2-2-----------3-0-7-3
E) -----------------------0-0-0-0-0---------

G) -----------------------------------------
D) -----------------------------------------
A) 0-0-0-0-0-2-2-2-2-2-----------3--0--
E) -----------------------0-0-0-0-0-------

G) -----------------------------------------
D) -----------------------------------------
A) 0-0-0-0-0-2-2-2-2-2-----------7--7--
E) -----------------------0-0-0-0-0-------

G) -----------------------------------------
D) -----------------------------------------
A) 0-0-0-0-0-2-2-2-2-2-----------7--0--
E) -----------------------0-0-0-0-0-------

G) -----------------------------------------
D) -----------------------------------------
A) 0-0-0-0-0-2-2-2-2-2-----------7--7--
E) -----------------------0-0-0-0-0--0--0


Enjoy!
"My rhymes are so potent that in a small segment I made all of the lady listeners pregnant..."
sunny987_987
New arrival
 
Posts: 6
Joined: Sun Oct 09, 2005 9:37 am
Location: NSW, Australia

Postby gr67 » Mon Apr 09, 2007 4:20 pm

first post :D

This is what I have gathered together from listening to a few FoTC shows. Probably not 100% but sounds close to me.


Intro
(this is played on some versions of the song)
(Alternate between the 2 chords)

|--9----8----
|-10---9----
|--9----8----
|-11---10--
|--9----8----
|--0----0----

Verse
(sometimes add the notes after the chords)
(Jemaine plays this part)

|---------------------------------------------
|---------------------------------------------
|---------------------------------------------
|------------5----------------------2--------
|--7---------3-3-4-5---3----------2-5-3-2-
|--5-5-6-7-------------1-1-2-3---0--------

Verse
(Bret plays this part)

|-----------------
|-----------------
|-----------------
|---------------2-
|--7---5---3---2-
|--5---3---1---0-
gr67
New arrival
 
Posts: 20
Joined: Mon Apr 09, 2007 5:39 am
Location: Canada

Postby Sherry » Tue Apr 10, 2007 4:54 pm

Cheers for those.

I'll update the lyrics and tabs pages on the main site soon and link to these tabs. Give people the change to try them out.

Thanks :)
Sherry
Professional Blonde
 
Posts: 4465
Joined: Sun Oct 02, 2005 9:57 am

Postby Grizmint » Wed May 07, 2008 1:36 am

Code: Select all
For Jemaine's part I play:
e:-----------------------------------------------------:
B:-----------------------------------------------------:
G:-----------------------------------------------------:
D:------------------------------------------2----------:
A:--------------2-2-2h3p2---------------3-0---3--------:
E:--5-5-5h7p5---------------1-1-1h3p1------------------:

It sounds pretty good to me
Grizmint
New arrival
 
Posts: 5
Joined: Tue Aug 14, 2007 11:17 pm


Return to Music, lyrics and tabs

Who is online

Users browsing this forum: No registered users and 0 guests

cron